  0
SECTION
  2
HEADER
  9
$ACADVER
  1
AC1015
  9
$ACADMAINTVER
 70
    20
  9
$DWGCODEPAGE
  3
ANSI_1252
  9
$INSBASE
 10
0.0
 20
0.0
 30
0.0
  9
$EXTMIN
 10
1591.074999054883
 20
701.2171826191522
 30
0.0
  9
$EXTMAX
 10
1813.093203600049
 20
850.6405084113458
 30
0.0
  9
$LIMMIN
 10
0.0
 20
0.0
  9
$LIMMAX
 10
420.0
 20
297.0
  9
$ORTHOMODE
 70
     0
  9
$REGENMODE
 70
     1
  9
$FILLMODE
 70
     1
  9
$QTEXTMODE
 70
     0
  9
$MIRRTEXT
 70
     0
  9
$LTSCALE
 40
1.0
  9
$ATTMODE
 70
     1
  9
$TEXTSIZE
 40
2.5
  9
$TRACEWID
 40
1.0
  9
$TEXTSTYLE
  7
Standard
  9
$CLAYER
  8
0
  9
$CELTYPE
  6
ByLayer
  9
$CECOLOR
 62
     1
  9
$CELTSCALE
 40
1.0
  9
$DISPSILH
 70
     0
  9
$DIMSCALE
 40
1.0
  9
$DIMASZ
 40
2.5
  9
$DIMEXO
 40
0.625
  9
$DIMDLI
 40
3.75
  9
$DIMRND
 40
0.0
  9
$DIMDLE
 40
0.0
  9
$DIMEXE
 40
1.25
  9
$DIMTP
 40
0.0
  9
$DIMTM
 40
0.0
  9
$DIMTXT
 40
2.5
  9
$DIMCEN
 40
2.5
  9
$DIMTSZ
 40
0.0
  9
$DIMTOL
 70
     0
  9
$DIMLIM
 70
     0
  9
$DIMTIH
 70
     0
  9
$DIMTOH
 70
     0
  9
$DIMSE1
 70
     0
  9
$DIMSE2
 70
     0
  9
$DIMTAD
 70
     1
  9
$DIMZIN
 70
     8
  9
$DIMBLK
  1

  9
$DIMASO
 70
     1
  9
$DIMSHO
 70
     1
  9
$DIMPOST
  1

  9
$DIMAPOST
  1

  9
$DIMALT
 70
     0
  9
$DIMALTD
 70
     3
  9
$DIMALTF
 40
0.03937007874016
  9
$DIMLFAC
 40
1.0
  9
$DIMTOFL
 70
     1
  9
$DIMTVP
 40
0.0
  9
$DIMTIX
 70
     0
  9
$DIMSOXD
 70
     0
  9
$DIMSAH
 70
     0
  9
$DIMBLK1
  1

  9
$DIMBLK2
  1

  9
$DIMSTYLE
  2
ISO-25
  9
$DIMCLRD
 70
     0
  9
$DIMCLRE
 70
     0
  9
$DIMCLRT
 70
     0
  9
$DIMTFAC
 40
1.0
  9
$DIMGAP
 40
0.625
  9
$DIMJUST
 70
     0
  9
$DIMSD1
 70
     0
  9
$DIMSD2
 70
     0
  9
$DIMTOLJ
 70
     0
  9
$DIMTZIN
 70
     8
  9
$DIMALTZ
 70
     0
  9
$DIMALTTZ
 70
     0
  9
$DIMUPT
 70
     0
  9
$DIMDEC
 70
     2
  9
$DIMTDEC
 70
     2
  9
$DIMALTU
 70
     2
  9
$DIMALTTD
 70
     3
  9
$DIMTXSTY
  7
Standard
  9
$DIMAUNIT
 70
     0
  9
$DIMADEC
 70
     0
  9
$DIMALTRND
 40
0.0
  9
$DIMAZIN
 70
     0
  9
$DIMDSEP
 70
    44
  9
$DIMATFIT
 70
     3
  9
$DIMFRAC
 70
     0
  9
$DIMLDRBLK
  1

  9
$DIMLUNIT
 70
     2
  9
$DIMLWD
 70
    -2
  9
$DIMLWE
 70
    -2
  9
$DIMTMOVE
 70
     0
  9
$LUNITS
 70
     2
  9
$LUPREC
 70
     4
  9
$SKETCHINC
 40
1.0
  9
$FILLETRAD
 40
0.0
  9
$AUNITS
 70
     0
  9
$AUPREC
 70
     0
  9
$MENU
  1
.
  9
$ELEVATION
 40
0.0
  9
$PELEVATION
 40
0.0
  9
$THICKNESS
 40
0.0
  9
$LIMCHECK
 70
     0
  9
$CHAMFERA
 40
0.0
  9
$CHAMFERB
 40
0.0
  9
$CHAMFERC
 40
0.0
  9
$CHAMFERD
 40
0.0
  9
$SKPOLY
 70
     0
  9
$TDCREATE
 40
2455605.451680915
  9
$TDUCREATE
 40
2455605.410014248
  9
$TDUPDATE
 40
2455605.483330475
  9
$TDUUPDATE
 40
2455605.441663808
  9
$TDINDWG
 40
0.0098726389
  9
$TDUSRTIMER
 40
0.0098724653
  9
$USRTIMER
 70
     1
  9
$ANGBASE
 50
0.0
  9
$ANGDIR
 70
     0
  9
$PDMODE
 70
     0
  9
$PDSIZE
 40
0.0
  9
$PLINEWID
 40
0.0
  9
$SPLFRAME
 70
     0
  9
$SPLINETYPE
 70
     6
  9
$SPLINESEGS
 70
     8
  9
$HANDSEED
  5
28A
  9
$SURFTAB1
 70
     6
  9
$SURFTAB2
 70
     6
  9
$SURFTYPE
 70
     6
  9
$SURFU
 70
     6
  9
$SURFV
 70
     6
  9
$UCSBASE
  2

  9
$UCSNAME
  2

  9
$UCSORG
 10
0.0
 20
0.0
 30
0.0
  9
$UCSXDIR
 10
1.0
 20
0.0
 30
0.0
  9
$UCSYDIR
 10
0.0
 20
1.0
 30
0.0
  9
$UCSORTHOREF
  2

  9
$UCSORTHOVIEW
 70
     0
  9
$UCSORGTOP
 10
0.0
 20
0.0
 30
0.0
  9
$UCSORGBOTTOM
 10
0.0
 20
0.0
 30
0.0
  9
$UCSORGLEFT
 10
0.0
 20
0.0
 30
0.0
  9
$UCSORGRIGHT
 10
0.0
 20
0.0
 30
0.0
  9
$UCSORGFRONT
 10
0.0
 20
0.0
 30
0.0
  9
$UCSORGBACK
 10
0.0
 20
0.0
 30
0.0
  9
$PUCSBASE
  2

  9
$PUCSNAME
  2

  9
$PUCSORG
 10
0.0
 20
0.0
 30
0.0
  9
$PUCSXDIR
 10
1.0
 20
0.0
 30
0.0
  9
$PUCSYDIR
 10
0.0
 20
1.0
 30
0.0
  9
$PUCSORTHOREF
  2

  9
$PUCSORTHOVIEW
 70
     0
  9
$PUCSORGTOP
 10
0.0
 20
0.0
 30
0.0
  9
$PUCSORGBOTTOM
 10
0.0
 20
0.0
 30
0.0
  9
$PUCSORGLEFT
 10
0.0
 20
0.0
 30
0.0
  9
$PUCSORGRIGHT
 10
0.0
 20
0.0
 30
0.0
  9
$PUCSORGFRONT
 10
0.0
 20
0.0
 30
0.0
  9
$PUCSORGBACK
 10
0.0
 20
0.0
 30
0.0
  9
$USERI1
 70
     0
  9
$USERI2
 70
     0
  9
$USERI3
 70
     0
  9
$USERI4
 70
     0
  9
$USERI5
 70
     0
  9
$USERR1
 40
0.0
  9
$USERR2
 40
0.0
  9
$USERR3
 40
0.0
  9
$USERR4
 40
0.0
  9
$USERR5
 40
0.0
  9
$WORLDVIEW
 70
     1
  9
$SHADEDGE
 70
     3
  9
$SHADEDIF
 70
    70
  9
$TILEMODE
 70
     1
  9
$MAXACTVP
 70
    64
  9
$PINSBASE
 10
0.0
 20
0.0
 30
0.0
  9
$PLIMCHECK
 70
     0
  9
$PEXTMIN
 10
0.0
 20
0.0
 30
0.0
  9
$PEXTMAX
 10
0.0
 20
0.0
 30
0.0
  9
$PLIMMIN
 10
0.0
 20
0.0
  9
$PLIMMAX
 10
12.0
 20
9.0
  9
$UNITMODE
 70
     0
  9
$VISRETAIN
 70
     1
  9
$PLINEGEN
 70
     0
  9
$PSLTSCALE
 70
     1
  9
$TREEDEPTH
 70
  3020
  9
$CMLSTYLE
  2
Standard
  9
$CMLJUST
 70
     0
  9
$CMLSCALE
 40
20.0
  9
$PROXYGRAPHICS
 70
     1
  9
$MEASUREMENT
 70
     1
  9
$CELWEIGHT
370
    -1
  9
$ENDCAPS
280
     0
  9
$JOINSTYLE
280
     0
  9
$LWDISPLAY
290
     0
  9
$INSUNITS
 70
     4
  9
$HYPERLINKBASE
  1

  9
$STYLESHEET
  1

  9
$XEDIT
290
     1
  9
$CEPSNTYPE
380
     0
  9
$PSTYLEMODE
290
     1
  9
$FINGERPRINTGUID
  2
{562F729D-D319-43DD-B572-0830A32F61EC}
  9
$VERSIONGUID
  2
{EDD27151-D8D5-4375-AA5E-E4E9EB8FD162}
  9
$EXTNAMES
290
     1
  9
$PSVPSCALE
 40
0.0
  9
$OLESTARTUP
290
     0
  0
ENDSEC
  0
SECTION
  2
CLASSES
  0
CLASS
  1
ACDBDICTIONARYWDFLT
  2
AcDbDictionaryWithDefault
  3
ObjectDBX Classes
 90
        0
280
     0
281
     0
  0
CLASS
  1
ACDBPLACEHOLDER
  2
AcDbPlaceHolder
  3
ObjectDBX Classes
 90
        0
280
     0
281
     0
  0
CLASS
  1
LAYOUT
  2
AcDbLayout
  3
ObjectDBX Classes
 90
        0
280
     0
281
     0
  0
CLASS
  1
DICTIONARYVAR
  2
AcDbDictionaryVar
  3
ObjectDBX Classes
 90
        0
280
     0
281
     0
  0
CLASS
  1
TABLESTYLE
  2
AcDbTableStyle
  3
ObjectDBX Classes
 90
     4095
280
     0
281
     0
  0
CLASS
  1
MATERIAL
  2
AcDbMaterial
  3
ObjectDBX Classes
 90
     1153
280
     0
281
     0
  0
CLASS
  1
VISUALSTYLE
  2
AcDbVisualStyle
  3
ObjectDBX Classes
 90
     4095
280
     0
281
     0
  0
CLASS
  1
SCALE
  2
AcDbScale
  3
ObjectDBX Classes
 90
     1153
280
     0
281
     0
  0
CLASS
  1
MLEADERSTYLE
  2
AcDbMLeaderStyle
  3
ACDB_MLEADERSTYLE_CLASS
 90
     4095
280
     0
281
     0
  0
CLASS
  1
CELLSTYLEMAP
  2
AcDbCellStyleMap
  3
ObjectDBX Classes
 90
     1152
280
     0
281
     0
  0
CLASS
  1
SORTENTSTABLE
  2
AcDbSortentsTable
  3
ObjectDBX Classes
 90
        0
280
     0
281
     0
  0
ENDSEC
  0
SECTION
  2
TABLES
  0
TABLE
  2
VPORT
  5
8
330
0
100
AcDbSymbolTable
 70
     1
  0
VPORT
  5
EA
330
8
100
AcDbSymbolTableRecord
100
AcDbViewportTableRecord
  2
*Active
 70
     0
 10
0.0
 20
0.0
 11
1.0
 21
1.0
 12
1705.373956405196
 22
775.8169832548156
 13
0.0
 23
0.0
 14
10.0
 24
10.0
 15
10.0
 25
10.0
 16
0.0
 26
0.0
 36
1.0
 17
0.0
 27
0.0
 37
0.0
 40
169.3904481219788
 41
1.965728274173806
 42
50.0
 43
0.0
 44
0.0
 50
0.0
 51
0.0
 71
     0
 72
  1000
 73
     1
 74
     3
 75
     0
 76
     0
 77
     0
 78
     0
281
     0
 65
     1
110
0.0
120
0.0
130
0.0
111
1.0
121
0.0
131
0.0
112
0.0
122
1.0
132
0.0
 79
     0
146
0.0
  0
ENDTAB
  0
TABLE
  2
LTYPE
  5
5
330
0
100
AcDbSymbolTable
 70
     1
  0
LTYPE
  5
14
330
5
100
AcDbSymbolTableRecord
100
AcDbLinetypeTableRecord
  2
ByBlock
 70
     0
  3

 72
    65
 73
     0
 40
0.0
  0
LTYPE
  5
15
330
5
100
AcDbSymbolTableRecord
100
AcDbLinetypeTableRecord
  2
ByLayer
 70
     0
  3

 72
    65
 73
     0
 40
0.0
  0
LTYPE
  5
16
330
5
100
AcDbSymbolTableRecord
100
AcDbLinetypeTableRecord
  2
Continuous
 70
     0
  3
Solid line
 72
    65
 73
     0
 40
0.0
  0
ENDTAB
  0
TABLE
  2
LAYER
  5
2
330
0
100
AcDbSymbolTable
 70
     1
  0
LAYER
  5
10
102
{ACAD_XDICTIONARY
360
13C
102
}
330
2
100
AcDbSymbolTableRecord
100
AcDbLayerTableRecord
  2
0
 70
     0
 62
     7
  6
Continuous
370
    -3
390
F
  0
ENDTAB
  0
TABLE
  2
STYLE
  5
3
330
0
100
AcDbSymbolTable
 70
     2
  0
STYLE
  5
11
330
3
100
AcDbSymbolTableRecord
100
AcDbTextStyleTableRecord
  2
Standard
 70
     0
 40
0.0
 41
1.0
 50
0.0
 71
     0
 42
2.5
  3
txt.shx
  4

  0
STYLE
  5
132
330
3
100
AcDbSymbolTableRecord
100
AcDbTextStyleTableRecord
  2
Annotatif
 70
     0
 40
0.0
 41
1.0
 50
0.0
 71
     0
 42
2.5
  3
txt.shx
  4

1001
AcadAnnotative
1000
AnnotativeData
1002
{
1070
     1
1070
     1
1002
}
  0
ENDTAB
  0
TABLE
  2
VIEW
  5
6
330
0
100
AcDbSymbolTable
 70
     0
  0
ENDTAB
  0
TABLE
  2
UCS
  5
7
330
0
100
AcDbSymbolTable
 70
     0
  0
ENDTAB
  0
TABLE
  2
APPID
  5
9
330
0
100
AcDbSymbolTable
 70
     8
  0
APPID
  5
12
330
9
100
AcDbSymbolTableRecord
100
AcDbRegAppTableRecord
  2
ACAD
 70
     0
  0
APPID
  5
9E
330
9
100
AcDbSymbolTableRecord
100
AcDbRegAppTableRecord
  2
ACAD_PSEXT
 70
     0
  0
APPID
  5
133
330
9
100
AcDbSymbolTableRecord
100
AcDbRegAppTableRecord
  2
AcadAnnoPO
 70
     0
  0
APPID
  5
134
330
9
100
AcDbSymbolTableRecord
100
AcDbRegAppTableRecord
  2
AcadAnnotative
 70
     0
  0
APPID
  5
135
330
9
100
AcDbSymbolTableRecord
100
AcDbRegAppTableRecord
  2
ACAD_DSTYLE_DIMJAG
 70
     0
  0
APPID
  5
136
330
9
100
AcDbSymbolTableRecord
100
AcDbRegAppTableRecord
  2
ACAD_DSTYLE_DIMTALN
 70
     0
  0
APPID
  5
165
330
9
100
AcDbSymbolTableRecord
100
AcDbRegAppTableRecord
  2
ACAD_MLEADERVER
 70
     0
  0
APPID
  5
25E
330
9
100
AcDbSymbolTableRecord
100
AcDbRegAppTableRecord
  2
ACAD_EXEMPT_FROM_CAD_STANDARDS
 70
     0
  0
ENDTAB
  0
TABLE
  2
DIMSTYLE
  5
A
330
0
100
AcDbSymbolTable
 70
     2
100
AcDbDimStyleTable
 71
     2
340
27
340
137
  0
DIMSTYLE
105
27
330
A
100
AcDbSymbolTableRecord
100
AcDbDimStyleTableRecord
  2
ISO-25
 70
     0
 41
2.5
 42
0.625
 43
3.75
 44
1.25
 73
     0
 74
     0
 77
     1
 78
     8
140
2.5
141
2.5
143
0.03937007874016
147
0.625
171
     3
172
     1
271
     2
272
     2
274
     3
278
    44
283
     0
284
     8
340
11
  0
DIMSTYLE
105
137
330
A
100
AcDbSymbolTableRecord
100
AcDbDimStyleTableRecord
  2
Annotatif
 70
     0
 40
0.0
 41
2.5
 42
0.625
 43
3.75
 44
1.25
 73
     0
 74
     0
 77
     1
 78
     8
140
2.5
141
2.5
143
0.03937007874016
147
0.625
171
     3
172
     1
271
     2
272
     2
274
     3
278
    44
283
     0
284
     8
340
11
1001
AcadAnnotative
1000
AnnotativeData
1002
{
1070
     1
1070
     1
1002
}
1001
ACAD_DSTYLE_DIMJAG
1070
   388
1040
1.5
1001
ACAD_DSTYLE_DIMTALN
1070
   392
1070
     0
  0
ENDTAB
  0
TABLE
  2
BLOCK_RECORD
  5
1
330
0
100
AcDbSymbolTable
 70
     2
  0
BLOCK_RECORD
  5
1F
102
{ACAD_XDICTIONARY
360
27C
102
}
330
1
100
AcDbSymbolTableRecord
100
AcDbBlockTableRecord
  2
*Model_Space
340
22
  0
BLOCK_RECORD
  5
D2
330
1
100
AcDbSymbolTableRecord
100
AcDbBlockTableRecord
  2
*Paper_Space
340
D3
  0
BLOCK_RECORD
  5
D6
330
1
100
AcDbSymbolTableRecord
100
AcDbBlockTableRecord
  2
*Paper_Space0
340
D7
  0
ENDTAB
  0
ENDSEC
  0
SECTION
  2
BLOCKS
  0
BLOCK
  5
20
330
1F
100
AcDbEntity
  8
0
100
AcDbBlockBegin
  2
*Model_Space
 70
     0
 10
0.0
 20
0.0
 30
0.0
  3
*Model_Space
  1

  0
ENDBLK
  5
21
330
1F
100
AcDbEntity
  8
0
100
AcDbBlockEnd
  0
BLOCK
  5
D4
330
D2
100
AcDbEntity
 67
     1
  8
0
100
AcDbBlockBegin
  2
*Paper_Space
 70
     0
 10
0.0
 20
0.0
 30
0.0
  3
*Paper_Space
  1

  0
ENDBLK
  5
D5
330
D2
100
AcDbEntity
 67
     1
  8
0
100
AcDbBlockEnd
  0
BLOCK
  5
D8
330
D6
100
AcDbEntity
 67
     1
  8
0
100
AcDbBlockBegin
  2
*Paper_Space0
 70
     0
 10
0.0
 20
0.0
 30
0.0
  3
*Paper_Space0
  1

  0
ENDBLK
  5
D9
330
D6
100
AcDbEntity
 67
     1
  8
0
100
AcDbBlockEnd
  0
ENDSEC
  0
SECTION
  2
ENTITIES
  0
LWPOLYLINE
  5
210
330
1F
100
AcDbEntity
  8
0
100
AcDbPolyline
 90
       11
 70
     1
 43
0.0
 10
1696.385145176918
 20
760.1995068984231
 10
1694.7960912444
 20
760.2204029325211
 10
1692.424251023346
 20
760.1949146055752
 10
1694.097704344425
 20
763.3803581690182
 10
1694.406032195416
 20
763.9411600943304
 10
1694.74448345862
 20
764.4408447116907
 10
1695.02908948141
 20
764.7560311385457
 10
1695.329081369837
 20
764.7944683576668
 10
1695.567665806704
 20
764.7087805050203
 10
1695.882910572243
 20
764.2717207938012
 10
1696.049531400938
 20
763.7654703835696
  0
LWPOLYLINE
  5
213
330
1F
100
AcDbEntity
  8
0
100
AcDbPolyline
 90
       13
 70
     1
 43
0.0
 10
1713.137378510853
 20
762.7107454383576
 10
1713.126091146772
 20
762.5528184571804
 10
1713.16653885115
 20
761.8454144932866
 10
1713.267657248962
 20
761.1784336632254
 10
1713.712578544585
 20
760.5922986617433
 10
1714.440631181457
 20
760.1678561955914
 10
1715.128236977082
 20
759.8242599971006
 10
1715.832772944723
 20
759.2460504976251
 10
1716.138274726884
 20
758.7371862866412
 10
1716.138274726884
 20
758.3046519048938
 10
1716.138274726884
 20
757.7827115734081
 10
1717.449941678108
 20
757.195260271887
 10
1717.936997008383
 20
760.95955907227
  0
CIRCLE
  5
217
330
1F
100
AcDbEntity
  8
0
100
AcDbCircle
 10
1718.024188862812
 20
750.6886690733072
 30
0.0
 40
1.312424920199084
  0
LWPOLYLINE
  5
219
330
1F
100
AcDbEntity
  8
0
100
AcDbPolyline
 90
        8
 70
     1
 43
0.0
 10
1720.731513676282
 20
761.2599111239965
 10
1720.951914922556
 20
762.3612557805527
 10
1721.384600576119
 20
764.3998345258287
 10
1721.801679724532
 20
766.8710329969916
 10
1723.658846668277
 20
766.4537987911562
 10
1760.141006866052
 20
753.6029035565179
 10
1767.082437469991
 20
751.2229667509192
 10
1749.279053989583
 20
750.8440700716845
  0
LWPOLYLINE
  5
21A
330
1F
100
AcDbEntity
  8
0
100
AcDbPolyline
 90
        9
 70
     1
 43
0.0
 10
1758.222640656943
 20
748.7393264594275
 10
1773.842730355584
 20
749.1402910274547
 10
1783.996685982118
 20
747.7342627973476
 10
1799.611841523223
 20
745.5708599999516
 10
1801.962252356742
 20
745.2173882138004
 10
1801.639094953938
 20
744.9247250612343
 10
1796.471016572748
 20
745.2516220480203
 10
1782.170821722441
 20
746.3850149642993
 10
1770.552110337554
 20
747.3214450563999
  0
LWPOLYLINE
  5
21B
330
1F
100
AcDbEntity
  8
0
100
AcDbPolyline
 90
       12
 70
     1
 43
0.0
 10
1641.74275512806
 20
800.1207736975656
 10
1694.995459091955
 20
771.2443498281964
 10
1696.243163390918
 20
770.7036348369064
 10
1705.526269462618
 20
771.6383016801763
 10
1706.235163426453
 20
771.8050003505186
 10
1706.610460432876
 20
772.1800717764335
 10
1706.735559434997
 20
772.8885399606761
 10
1706.401961332815
 20
773.7220315653168
 10
1705.734767417907
 20
774.5138490847265
 10
1704.525477445528
 20
775.5973886948842
 10
1703.191089615768
 20
776.4308802995246
 10
1653.520304536756
 20
804.6091440910776
  0
LWPOLYLINE
  5
21C
330
1F
100
AcDbEntity
  8
0
100
AcDbPolyline
 90
       33
 70
     1
 43
0.0
 10
1596.99377758343
 20
839.4924692169286
 10
1597.349927374442
 20
839.003057461289
 10
1598.904584957101
 20
836.9798926970387
 10
1601.309012215166
 20
834.2031121308346
 10
1603.462497970108
 20
831.8357004495108
 10
1606.10021473152
 20
828.9843739682901
 10
1609.90183943669
 20
825.1315203744916
 10
1613.437109627022
 20
822.0266337686179
 10
1617.425722076139
 20
818.6329626756332
 10
1622.871009358456
 20
814.2577535352456
 10
1628.700601412933
 20
809.640851573101
 10
1638.431302344329
 20
802.0885693147965
 10
1650.300237754233
 20
806.6838610386867
 10
1649.040396474786
 20
807.7330980448815
 10
1625.851546096226
 20
826.4375835913952
 10
1619.507768600499
 20
831.3906826503435
 10
1614.882097915269
 20
835.0889969637711
 10
1610.652913681279
 20
838.2589808273833
 10
1606.952376904159
 20
840.90063365882
 10
1604.375217260724
 20
842.5516666784705
 10
1602.931528070029
 20
843.409100747106
 10
1601.974061656296
 20
843.9558960062486
 10
1601.358546633728
 20
844.2976431888046
 10
1600.788626122103
 20
844.4115587222031
 10
1600.218705610478
 20
844.4571252849772
 10
1599.512003855536
 20
844.3432091692221
 10
1598.828099928465
 20
843.9786789964591
 10
1597.004353833374
 20
842.042112599246
 10
1596.639604614367
 20
841.6775824264831
 10
1596.48002668795
 20
841.3130522537201
 10
1596.45723000485
 20
840.8573895377658
 10
1596.525620054123
 20
840.3789438316042
 10
1596.753588029813
 20
839.7865825920444
  0
ELLIPSE
  5
223
330
1F
100
AcDbEntity
  8
0
100
AcDbEllipse
 10
1718.18700648459
 20
709.9928879968237
 30
0.0
 11
-0.9076419113390043
 21
-2.21426708842134
 31
0.0
210
0.0
220
0.0
230
1.0
 40
0.6396516499454492
 41
-3.141592653589792
 42
3.141592653589792
  0
ELLIPSE
  5
224
330
1F
100
AcDbEntity
  8
0
100
AcDbEllipse
 10
1675.222438765824
 20
726.2092965382862
 30
0.0
 11
-0.9076419113390043
 21
-2.21426708842134
 31
0.0
210
0.0
220
0.0
230
1.0
 40
0.4707710847996701
 41
-3.141592653589792
 42
3.141592653589792
  0
ELLIPSE
  5
226
330
1F
100
AcDbEntity
  8
0
100
AcDbEllipse
 10
1657.175669081207
 20
741.5365942571252
 30
0.0
 11
0.4042366256637564
 21
0.9861684932786655
 31
0.0
210
0.0
220
0.0
230
0.9999999999999998
 40
0.5372047984648543
 41
-6.283185307179584
 42
0.0
  0
LWPOLYLINE
  5
22B
330
1F
100
AcDbEntity
  8
0
100
AcDbPolyline
 90
        3
 70
     1
 43
0.0
 10
1691.671486766067
 20
731.18874066244
 10
1689.235631968786
 20
728.4804801838609
 10
1693.174495528556
 20
730.5878981717706
  0
LWPOLYLINE
  5
22E
330
1F
100
AcDbEntity
  8
0
100
AcDbPolyline
 90
        4
 70
     1
 43
0.0
 10
1700.692960427568
 20
728.0305336215015
 10
1708.899526049256
 20
719.3374132371672
 10
1702.85726587968
 20
727.9540754122279
 10
1700.817850907846
 20
728.0037874530015
  0
LWPOLYLINE
  5
22F
330
1F
100
AcDbEntity
  8
0
100
AcDbPolyline
 90
       17
 70
     0
 43
0.0
 10
1672.005386054677
 20
751.4769079347686
 10
1677.607453632789
 20
747.568380057875
 10
1684.583611547531
 20
743.0260366833675
 10
1690.185677614409
 20
739.8569599640921
 10
1694.625050695497
 20
738.3780576488552
 10
1698.995948287151
 20
739.0236264157829
 10
1702.272947252662
 20
740.9130674760208
 10
1706.432217786023
 20
745.5736908080487
 10
1708.753638281576
 20
750.3942217973341
 10
1708.637889905096
 20
752.879530855619
 10
1706.747312939471
 20
753.8872337794665
 10
1701.453697133476
 20
754.2021403665759
 10
1679.721440742295
 20
753.8008970676296
 10
1671.457574583041
 20
753.6350328215022
 10
1671.249606220426
 20
753.3752285253955
 10
1671.301597177655
 20
752.6477758812642
 10
1672.005386054677
 20
751.4769079347686
  0
LWPOLYLINE
  5
24B
330
1F
100
AcDbEntity
  8
0
100
AcDbPolyline
 90
      352
 70
     1
 43
0.0
 10
1659.75079374683
 20
742.5111338797583
 10
1659.779354915663
 20
742.0015990248655
 10
1659.755175875264
 20
741.6618586019284
 10
1659.634678801001
 20
741.0609212171225
 10
1659.417008554379
 20
740.4685916472588
 10
1659.08730498743
 20
739.8810045895752
 10
1658.688013655989
 20
739.388337546643
 10
1658.409385120663
 20
739.132854031728
 10
1658.009458305636
 20
738.8621363420026
 10
1657.588276103053
 20
738.6828653314218
 10
1657.257229421813
 20
738.6144231083983
 10
1656.762927944678
 20
738.6385752573552
 10
1656.528978594741
 20
738.7113755292706
 10
1656.137676267523
 20
738.9522183035118
 10
1655.866284168944
 20
739.2538086192053
 10
1655.67511629698
 20
739.5971596108181
 10
1655.504727568594
 20
740.1899318746114
 10
1655.46722966286
 20
740.7683774642961
 10
1655.511212092234
 20
741.2442027271999
 10
1655.661663441567
 20
741.8643325611527
 10
1655.863612360341
 20
742.3660447938292
 10
1656.188345225858
 20
742.9231398313032
 10
1656.464460365361
 20
743.2725033082373
 10
1656.899647959368
 20
743.6781612525757
 10
1657.321229001183
 20
743.9436964187778
 10
1657.709856278408
 20
744.0936492246517
 10
1658.207243574919
 20
744.1562777840431
 10
1658.717405837835
 20
744.0502237680426
 10
1658.96413203293
 20
743.9190870858279
 10
1659.239213137679
 20
743.6830999203523
 10
1659.415754092307
 20
743.4550068613906
 10
1659.505858788802
 20
743.3010123607759
 10
1659.591859903729
 20
743.1155211860485
 10
1661.933117753789
 20
746.1341086464073
 10
1661.762023317588
 20
746.2880009335012
 10
1661.305648370024
 20
746.5686787450422
 10
1660.977994517238
 20
746.7441019381682
 10
1660.580129001308
 20
746.8727457887606
 10
1660.270137249481
 20
746.9570160489265
 10
1659.958159449936
 20
747.0608361734292
 10
1659.576602656936
 20
747.1943007490399
 10
1659.443057563582
 20
747.4040310473309
 10
1659.309512470256
 20
748.1094872257989
 10
1659.290434846382
 20
749.2344040008528
 10
1659.366746204982
 20
750.2067897696242
 10
1659.55752416993
 20
751.7130342799164
 10
1659.881848091336
 20
753.3336773742329
 10
1660.244255621208
 20
754.6014397969362
 10
1660.740279883718
 20
755.8407551560113
 10
1661.312614641665
 20
757.1182029373439
 10
1661.808638904146
 20
757.8427255464839
 10
1662.147423600593
 20
758.2134032511921
 10
1662.207363980026
 20
758.2537470020242
 10
1661.036074113235
 20
758.5882004605946
 10
1658.695186742687
 20
759.5959769987413
 10
1656.822476673628
 20
760.4597855854617
 10
1653.22111102338
 20
762.4393467836697
 10
1648.539336282284
 20
765.0307725438315
 10
1643.101275263867
 20
768.2340624268645
 10
1637.070498490021
 20
772.0524995046527
 10
1636.891828481562
 20
771.7281712513166
 10
1635.772431228532
 20
770.5255424043525
 10
1634.820944340277
 20
769.7424351869223
 10
1634.121321272909
 20
769.1830725751233
 10
1633.505652524811
 20
768.9313595095872
 10
1633.085878339149
 20
768.8474554471312
 10
1632.708207329171
 20
768.8337902131451
 10
1632.157590490581
 20
768.9713615599601
 10
1631.84098548473
 20
769.2189902476773
 10
1631.593208554685
 20
769.6041902822097
 10
1631.33166566426
 20
770.3333193424032
 10
1631.138949986536
 20
771.1174764144223
 10
1631.138949986536
 20
771.8878769225693
 10
1631.204712246853
 20
772.3933386562666
 10
1631.245969561296
 20
772.569623775179
 10
1631.814986471629
 20
774.9864948542916
 10
1632.988585305709
 20
777.8654147968036
 10
1634.73120018702
 20
781.4907216350174
 10
1636.865015542793
 20
784.9738594570799
 10
1639.461157084257
 20
788.9545883965793
 10
1640.193568495994
 20
790.0305659651447
 10
1640.630899481523
 20
790.6074964071511
 10
1640.963651806163
 20
790.9253740223166
 10
1641.313517285093
 20
791.0652360807097
 10
1641.610902251665
 20
791.0477534331793
 10
1641.873301360862
 20
790.9078913747897
 10
1642.013247379789
 20
790.5757193154268
 10
1642.13570047003
 20
789.981305786804
 10
1642.188180119254
 20
788.9673065220987
 10
1641.978260659282
 20
786.7295144660118
 10
1641.505942953245
 20
784.1945160847017
 10
1640.893673186412
 20
781.517012347379
 10
1640.222034316703
 20
778.8320731280064
 10
1639.326516686928
 20
776.5946239980721
 10
1639.046667805222
 20
775.8534688118698
 10
1646.79695617063
 20
772.4592757593555
 10
1653.509067226307
 20
769.2492740079751
 10
1659.109356665944
 20
766.491965075852
 10
1665.780288951432
 20
762.6646558526617
 10
1669.486362731102
 20
760.6481165892502
 10
1673.592374513995
 20
759.5156009408148
 10
1678.685957544618
 20
759.8163068326782
 10
1685.62843200898
 20
760.1218852103547
 10
1690.442231949408
 20
760.1736153841002
 10
1691.323963700084
 20
761.6770447774062
 10
1692.099996522145
 20
762.9066018895782
 10
1692.66782577422
 20
763.852415052791
 10
1693.311365650781
 20
764.7603961285557
 10
1693.879194039724
 20
765.3468002897486
 10
1694.428095851461
 20
765.8007906080882
 10
1694.901286175609
 20
766.1412833468448
 10
1695.658391557332
 20
766.3682785060146
 10
1696.415496939055
 20
766.292613452958
 10
1696.831904942159
 20
765.9710369774684
 10
1697.28616782594
 20
764.9873912877292
 10
1697.702575829044
 20
763.6632524201477
 10
1698.683929897223
 20
760.1692779156826
 10
1699.218180972286
 20
760.1622525224875
 10
1699.310307775235
 20
760.2612352944881
 10
1699.965094154021
 20
760.86327750299
 10
1700.541306926916
 20
761.6485498534046
 10
1701.248477148201
 20
762.6955798003246
 10
1701.79849756831
 20
763.8211372018258
 10
1702.008029485722
 20
765.0252216188264
 10
1702.086603954744
 20
765.8890209847404
 10
1701.981837996038
 20
766.7789964615757
 10
1701.905879523449
 20
767.0067348950824
 10
1699.706366773189
 20
767.8513599134085
 10
1694.452334092133
 20
770.1282890204811
 10
1638.446854640108
 20
800.4974129012325
 10
1638.289312980738
 20
800.6291171811309
 10
1627.93551458653
 20
808.6650036470592
 10
1622.097734062398
 20
813.2883906876402
 10
1616.635456381384
 20
817.6772513662571
 10
1612.626155150636
 20
821.0885253026233
 10
1609.050291354204
 20
824.2290636513816
 10
1605.20352926922
 20
828.1276628748882
 10
1602.548721207615
 20
830.9974647578629
 10
1600.381531446434
 20
833.3799417927867
 10
1597.943442533568
 20
836.195596909506
 10
1596.35682863578
 20
838.2603482530166
 10
1594.836877236365
 20
840.3490258308618
 10
1593.772911515716
 20
841.868063550376
 10
1593.012936247589
 20
843.1592459412778
 10
1592.404956205708
 20
844.3365004483302
 10
1591.758977141483
 20
845.7795868307282
 10
1591.302991462715
 20
847.2606488816809
 10
1591.074999054883
 20
848.2859993972406
 10
1591.112998077228
 20
849.3493260204441
 10
1591.454986688961
 20
849.9949172158949
 10
1591.948970526941
 20
850.4126526436476
 10
1592.822942862131
 20
850.6025323036983
 10
1593.924906741992
 20
850.6405084113458
 10
1595.520855322964
 20
850.3367008674421
 10
1597.686785786576
 20
849.7670614481966
 10
1600.460695428996
 20
848.6657587173459
 10
1603.918584021088
 20
846.8808891224899
 10
1608.478436493042
 20
844.2225725644812
 10
1612.848295579537
 20
841.6022321141197
 10
1618.472113772139
 20
837.8046371567061
 10
1626.991731940699
 20
831.5735741090785
 10
1634.214750101401
 20
826.0759036465488
 10
1645.599374580507
 20
817.1840199335518
 10
1654.544436794549
 20
809.9175341769866
 10
1710.515031374689
 20
777.9422320114818
 10
1714.378646813701
 20
775.7112615952381
 10
1720.4113982382
 20
773.068356168194
 10
1720.656594547927
 20
773.8035036888605
 10
1721.245732598724
 20
775.0988288560208
 10
1721.579335100269
 20
775.5819226715344
 10
1721.869123714878
 20
775.8136147334726
 10
1722.081635998551
 20
775.8715380782696
 10
1722.25550968519
 20
775.8136147334726
 10
1722.371425476264
 20
775.4081535153082
 10
1722.448702670332
 20
773.7090778089796
 10
1722.360751243209
 20
772.3378608646187
 10
1770.88376097479
 20
754.5756628151782
 10
1772.580581963313
 20
754.0572146744263
 10
1775.345116355708
 20
753.6321570488098
 10
1780.767857791001
 20
752.8883063137536
 10
1785.552629087168
 20
752.197587617239
 10
1790.815878203448
 20
751.294340327461
 10
1797.089245340049
 20
750.0722994891575
 10
1800.332256689453
 20
749.3284487541012
 10
1804.149653578807
 20
748.3792678013951
 10
1806.973932532874
 20
747.4906767626663
 10
1809.71975871838
 20
746.4714106615856
 10
1811.288802869461
 20
745.7919000738939
 10
1812.20407826464
 20
745.2691998244763
 10
1812.988599908615
 20
744.7464991359765
 10
1813.093203600049
 20
744.2760685602324
 10
1813.014750831488
 20
743.8840433731703
 10
1812.544037672477
 20
743.570423135704
 10
1811.733365105629
 20
743.3874779605893
 10
1810.321225628566
 20
743.3090730109931
 10
1804.646516797559
 20
743.4920181861079
 10
1796.382886455063
 20
744.0147184355255
 10
1782.072027394043
 20
745.1489565669244
 10
1770.431434077549
 20
746.0871502710606
 10
1753.299108119554
 20
748.0573571814701
 10
1720.485338184436
 20
760.0297726057172
 10
1720.395604919806
 20
759.5813756334382
 10
1719.993825137721
 20
758.1296603332913
 10
1719.47433752874
 20
756.2886017819937
 10
1721.79005899157
 20
755.2514683953404
 10
1721.968390712271
 20
755.0243252641912
 10
1722.268888966169
 20
754.6639432476323
 10
1722.349022236642
 20
754.1834343313047
 10
1722.349022236642
 20
753.4426492945848
 10
1722.228822762485
 20
752.7018646969507
 10
1721.808124171297
 20
751.4605493012192
 10
1719.53118563812
 20
744.7075772371199
 10
1717.993103461591
 20
741.5307826805173
 10
1717.576325522075
 20
740.8121756848816
 10
1717.485243183346
 20
740.0611965808337
 10
1716.781131009444
 20
735.9235031838752
 10
1716.336174325745
 20
733.6055362225915
 10
1715.490290626232
 20
730.2785716250427
 10
1714.944559067943
 20
728.5060087321353
 10
1714.453400233954
 20
727.1970394071201
 10
1713.907668675693
 20
726.1607714576627
 10
1713.225504012069
 20
725.5062870147003
 10
1712.843491489726
 20
725.4244760751271
 10
1712.488765761071
 20
725.479016701508
 10
1712.270473137778
 20
725.69717832886
 10
1712.161326826132
 20
729.8149784962397
 10
1712.379619449424
 20
733.2510234683788
 10
1712.408771459148
 20
733.5350269016844
 10
1710.969194136113
 20
732.0003998888777
 10
1709.277303310362
 20
730.5657184903821
 10
1707.431604698522
 20
729.4897075512808
 10
1705.944792071725
 20
728.7211283717907
 10
1704.965999195894
 20
728.4055781351262
 10
1715.400265707184
 20
713.0702842155512
 10
1715.978720565308
 20
713.8400933172643
 10
1716.52190896093
 20
714.4418664501913
 10
1717.139826199869
 20
715.0133651557856
 10
1717.707552575229
 20
715.4486856822111
 10
1718.461861740198
 20
715.9104886077109
 10
1719.298761726464
 20
716.2809050455616
 10
1719.978259955779
 20
716.4770075751722
 10
1720.73296737364
 20
716.5849400699036
 10
1721.574147852017
 20
716.5621400527063
 10
1722.170421088713
 20
716.4455006068422
 10
1722.883754580782
 20
716.1786451387268
 10
1723.550337855301
 20
715.7750401590504
 10
1724.036374083564
 20
715.3571720058907
 10
1724.499835967695
 20
714.8225066331754
 10
1724.973694984532
 20
714.0608889300819
 10
1725.316210962176
 20
713.2577950690221
 10
1725.536325500732
 20
712.4787342280032
 10
1725.653165843816
 20
711.8179371657268
 10
1725.7263942361
 20
710.5398975419371
 10
1725.64887193656
 20
709.4548400329681
 10
1725.467570782603
 20
708.4375692150197
 10
1725.175910571574
 20
707.4035580298639
 10
1724.830003613929
 20
706.5046982173253
 10
1724.328297984927
 20
705.4962180886822
 10
1723.69504582787
 20
704.5035765416741
 10
1722.943803574563
 20
703.5802902483355
 10
1722.357505468789
 20
702.9979989507364
 10
1721.851550208409
 20
702.5742773472098
 10
1721.15702024208
 20
702.095686145803
 10
1720.432667071486
 20
701.7109038302995
 10
1719.38748574616
 20
701.3465259989791
 10
1718.733513493352
 20
701.2308964099716
 10
1717.851371011468
 20
701.2171826191522
 10
1717.143412212286
 20
701.3351452920703
 10
1716.262281602467
 20
701.6713509011887
 10
1715.748337525543
 20
701.9876515870812
 10
1715.153142145261
 20
702.5026549938504
 10
1714.615988407992
 20
703.1651670472555
 10
1714.194427619084
 20
703.9048764326382
 10
1713.848646044356
 20
704.8069044490248
 10
1713.626874185564
 20
705.7835531839737
 10
1713.538910953861
 20
706.6056470489051
 10
1713.537956625127
 20
707.6294840043257
 10
1713.6454518575
 20
708.6430225070627
 10
1713.843190467954
 20
709.6045805896774
 10
1714.108243844037
 20
710.4892193105313
 10
1714.327658774746
 20
711.0702637292663
 10
1714.511898531131
 20
711.4943744892761
 10
1711.548128807848
 20
715.114584080281
 10
1697.143205918214
 20
729.0944339642343
 10
1695.280754209194
 20
729.7459006111084
 10
1694.665477672115
 20
729.9918634399464
 10
1682.266589409195
 20
723.1077286899989
 10
1681.741452710901
 20
721.9235546368322
 10
1680.924367972792
 20
720.5316600316463
 10
1680.246683494151
 20
719.6347445034791
 10
1679.409031715701
 20
718.7531249026696
 10
1678.747921711265
 20
718.2006411298942
 10
1677.788281995691
 20
717.5919966647711
 10
1676.91808396209
 20
717.2222817476912
 10
1675.902094008179
 20
717.0050258870067
 10
1675.140766702823
 20
717.0006765379302
 10
1674.288037839959
 20
717.176693667267
 10
1673.590491996244
 20
717.4898249087911
 10
1672.767633067514
 20
718.1181534713566
 10
1672.04304728906
 20
719.026336244023
 10
1671.583842769094
 20
719.9179926773281
 10
1671.260369922096
 20
720.8746842257355
 10
1671.042782898029
 20
721.9823942258154
 10
1670.956950131314
 20
723.1503591946315
 10
1671.003079229149
 20
724.39584463153
 10
1671.13675931391
 20
725.4115446866476
 10
1671.47925966314
 20
726.8839997310323
 10
1671.896023923634
 20
728.0912160899966
 10
1672.318193015291
 20
729.0397010303479
 10
1672.777798271695
 20
729.889335511154
 10
1673.520219303406
 20
730.9981600726692
 10
1674.343907063351
 20
731.960958387678
 10
1675.226685958279
 20
732.7581784958438
 10
1676.454485635187
 20
733.5376263969672
 10
1677.4143037751
 20
733.9071222829643
 10
1678.381610851533
 20
734.0700484336426
 10
1679.299627738843
 20
734.016714017825
 10
1679.820625736441
 20
733.8849041512615
 10
1680.871063592635
 20
733.342237424546
 10
1681.596437887123
 20
732.6716970025516
 10
1682.099197986112
 20
731.9810342730341
 10
1682.494235254978
 20
731.2155160055932
 10
1682.816981657281
 20
730.301293876291
 10
1683.021451296832
 20
729.3778710268703
 10
1683.138382477651
 20
728.2903720068096
 10
1683.148254838551
 20
727.3735371965965
 10
1683.110062960968
 20
726.7167012811142
 10
1683.042158557445
 20
726.1049246731642
 10
1682.987715931298
 20
725.7435766311407
 10
1682.901219859359
 20
725.2741167234407
 10
1686.387523318077
 20
726.9996306618477
 10
1690.553402567914
 20
731.6357057841103
 10
1688.103037097626
 20
732.6152634080998
 10
1687.420132808153
 20
732.9809568855949
 10
1686.327332641773
 20
733.288122282228
 10
1685.00864184507
 20
734.0245954945848
 10
1683.961445755431
 20
734.9161156759102
 10
1668.619500809222
 20
748.8530762656107
 10
1668.536111495389
 20
748.9261407929324
 10
1667.964044646407
 20
748.9076586051586
 10
1667.53107416198
 20
748.7673196993918
 10
1667.098102814449
 20
748.5685063959127
 10
1666.536409508979
 20
748.1591847337794
 10
1665.881101803465
 20
747.5393551520782
 10
1665.225794097922
 20
746.9663053519971
 10
1664.804524981959
 20
746.5686787450422
 10
1664.394957234432
 20
746.2880009335012
 10
1663.9268800553
 20
745.9722388346079
 10
1663.57582260251
 20
745.8903743265462
 10
1663.119446791814
 20
745.8318999288376
 10
1662.709879907419
 20
745.8435949840122
 10
1662.397717440315
 20
745.9238167969479
  0
LWPOLYLINE
  5
25B
330
1F
100
AcDbEntity
  8
0
100
AcDbPolyline
 90
       14
 70
     0
 43
0.0
 10
1636.062693889227
 20
779.4903272624996
 10
1637.494160994414
 20
782.3106665953543
 10
1638.006872842396
 20
783.1516847730068
 10
1638.53662368333
 20
783.6253878158271
 10
1639.066374524265
 20
783.569658350674
 10
1639.205782461728
 20
782.8173062560757
 10
1638.682092982982
 20
780.6130624776931
 10
1637.371462941517
 20
776.4656160645436
 10
1635.449208714047
 20
773.4817794122085
 10
1634.222236667253
 20
772.9912857277565
 10
1633.567852141108
 20
773.3182812297227
 10
1633.526952790142
 20
774.1357712791469
 10
1634.304035369185
 20
776.2612441994416
 10
1636.062693889227
 20
779.4903272624996
  0
LWPOLYLINE
  5
25C
330
1F
100
AcDbEntity
  8
0
100
AcDbPolyline
 90
        7
 70
     0
 43
0.0
 10
1640.445326788169
 20
773.3431677291438
 10
1654.829030868738
 20
766.2999630397361
 10
1662.454126108519
 20
761.9701237942294
 10
1660.952214540731
 20
761.1041561177293
 10
1651.651906721205
 20
765.8958441578317
 10
1641.716175429321
 20
771.5535007374402
 10
1640.445326788169
 20
773.3431677291438
  0
LWPOLYLINE
  5
27E
330
1F
100
AcDbEntity
  8
0
100
AcDbPolyline
 90
       12
 70
     1
 43
0.0
 10
1719.015099610269
 20
767.4970707072173
 10
1718.810629230855
 20
766.5025791013386
 10
1718.108667961311
 20
762.2863503462459
 10
1718.100084695994
 20
762.2200129645859
 10
1713.269403595772
 20
763.9825328161069
 10
1713.469894044585
 20
764.5335498195337
 10
1713.833919931454
 20
765.1803195217682
 10
1714.299065079267
 20
765.7260309503317
 10
1715.087789272704
 20
766.4940696149742
 10
1715.78546033295
 20
767.0840517997957
 10
1717.013430385315
 20
767.4414980800711
 10
1718.342514557724
 20
767.5777324647486
  0
ENDSEC
  0
SECTION
  2
OBJECTS
  0
DICTIONARY
  5
C
330
0
100
AcDbDictionary
281
     1
  3
ACAD_COLOR
350
6B
  3
ACAD_GROUP
350
D
  3
ACAD_LAYOUT
350
1A
  3
ACAD_MATERIAL
350
6A
  3
ACAD_MLEADERSTYLE
350
12D
  3
ACAD_MLINESTYLE
350
17
  3
ACAD_PLOTSETTINGS
350
19
  3
ACAD_PLOTSTYLENAME
350
E
  3
ACAD_SCALELIST
350
10C
  3
ACAD_TABLESTYLE
350
7E
  3
ACAD_VISUALSTYLE
350
EF
  3
ACDB_RECOMPOSE_DATA
350
15D
  3
AcDbVariableDictionary
350
5E
  3
DWGPROPS
350
282
  0
DICTIONARY
  5
13C
330
10
100
AcDbDictionary
280
     1
281
     1
  3
ADSK_XREC_LAYER_RECONCILED
360
230
  0
DICTIONARY
  5
27C
330
1F
100
AcDbDictionary
280
     1
281
     1
  3
ACAD_SORTENTS
360
27D
  0
DICTIONARY
  5
6B
102
{ACAD_REACTORS
330
C
102
}
330
C
100
AcDbDictionary
281
     1
  0
DICTIONARY
  5
D
102
{ACAD_REACTORS
330
C
102
}
330
C
100
AcDbDictionary
281
     1
  0
DICTIONARY
  5
1A
102
{ACAD_REACTORS
330
C
102
}
330
C
100
AcDbDictionary
281
     1
  3
Model
350
22
  3
Présentation1
350
D3
  3
Présentation2
350
D7
  0
DICTIONARY
  5
6A
102
{ACAD_REACTORS
330
C
102
}
330
C
100
AcDbDictionary
281
     1
  3
ByBlock
350
ED
  3
ByLayer
350
EC
  3
Global
350
EE
  0
DICTIONARY
  5
12D
102
{ACAD_REACTORS
330
C
102
}
330
C
100
AcDbDictionary
281
     1
  3
Annotatif
350
13B
  3
Standard
350
12E
  0
DICTIONARY
  5
17
102
{ACAD_REACTORS
330
C
102
}
330
C
100
AcDbDictionary
281
     1
  3
Standard
350
18
  0
DICTIONARY
  5
19
102
{ACAD_REACTORS
330
C
102
}
330
C
100
AcDbDictionary
281
     1
  0
ACDBDICTIONARYWDFLT
  5
E
102
{ACAD_REACTORS
330
C
102
}
330
C
100
AcDbDictionary
281
     1
  3
Normal
350
F
100
AcDbDictionaryWithDefault
340
F
  0
DICTIONARY
  5
10C
102
{ACAD_REACTORS
330
C
102
}
330
C
100
AcDbDictionary
281
     1
  3
A0
350
10D
  3
A1
350
188
  3
A2
350
189
  3
A3
350
18A
  3
A4
350
18B
  3
A5
350
18C
  3
A6
350
18D
  3
A7
350
18E
  3
A8
350
18F
  3
A9
350
190
  3
B0
350
191
  3
B1
350
192
  3
B2
350
193
  3
B3
350
194
  3
B4
350
195
  3
B5
350
196
  3
B6
350
197
  3
B7
350
198
  3
B8
350
199
  3
B9
350
19A
  3
C0
350
19B
  3
C1
350
19C
  3
C2
350
19D
  3
C3
350
19E
  3
C4
350
19F
  3
C5
350
1A0
  3
C6
350
1A1
  3
C7
350
1A2
  3
C8
350
1A3
  3
C9
350
1A4
  3
D0
350
1A5
  3
D1
350
1A6
  3
D2
350
1A7
  0
DICTIONARY
  5
7E
102
{ACAD_REACTORS
330
C
102
}
330
C
100
AcDbDictionary
281
     1
  3
Standard
350
7F
  0
DICTIONARY
  5
EF
102
{ACAD_REACTORS
330
C
102
}
330
C
100
AcDbDictionary
281
     1
  3
2dWireframe
350
F5
  3
3D Hidden
350
F7
  3
3dWireframe
350
F6
  3
Basic
350
F4
  3
Brighten
350
FB
  3
ColorChange
350
FF
  3
Conceptual
350
F8
  3
Dim
350
FA
  3
Facepattern
350
FE
  3
Flat
350
F0
  3
FlatWithEdges
350
F1
  3
Gouraud
350
F2
  3
GouraudWithEdges
350
F3
  3
Linepattern
350
FD
  3
Realistic
350
F9
  3
Thicken
350
FC
  0
XRECORD
  5
15D
102
{ACAD_REACTORS
330
C
102
}
330
C
100
AcDbXrecord
280
     1
 90
        1
330
7F
  0
DICTIONARY
  5
5E
102
{ACAD_REACTORS
330
C
102
}
330
C
100
AcDbDictionary
281
     1
  3
CANNOSCALE
350
146
  3
CMLEADERSTYLE
350
145
  3
CTABLESTYLE
350
84
  3
DIMASSOC
350
5F
  3
HIDETEXT
350
63
  3
INDEXCTL
350
234
  3
LIGHTINGUNITS
350
232
  3
MSLTSCALE
350
231
  3
PSOLHEIGHT
350
280
  3
PSOLWIDTH
350
27F
  3
SORTENTS
350
233
  0
XRECORD
  5
282
102
{ACAD_REACTORS
330
C
102
}
330
C
100
AcDbXrecord
280
     1
  1
DWGPROPS COOKIE
  2

  3

  4

  6

  7

  8
Vincent
  9

300
=
301
=
302
=
303
=
304
=
305
=
306
=
307
=
308
=
309
=
 40
0.0098726388888889
 41
2455605.451680915
 42
2455605.483330475
  1

 90
        0
  0
XRECORD
  5
230
102
{ACAD_REACTORS
330
13C
102
}
330
13C
100
AcDbXrecord
280
     1
290
     1
  0
SORTENTSTABLE
  5
27D
102
{ACAD_REACTORS
330
27C
102
}
330
27C
100
AcDbSortentsTable
330
1F
331
22E
  5
22F
331
21B
  5
21C
331
219
  5
219
331
25C
  5
27A
331
217
  5
217
331
226
  5
22B
331
27E
  5
21A
331
224
  5
226
331
213
  5
213
331
24B
  5
25B
331
22F
  5
24B
331
21C
  5
223
331
21A
  5
21B
331
22B
  5
22E
331
25B
  5
25C
331
223
  5
224
331
210
  5
210
  0
LAYOUT
  5
22
102
{ACAD_XDICTIONARY
360
283
102
}
102
{ACAD_REACTORS
330
1A
102
}
330
1A
100
AcDbPlotSettings
  1

  2
none_device
  4
ISO_A4_(210.00_x_297.00_MM)
  6

 40
7.5
 41
20.0
 42
7.5
 43
20.0
 44
210.0
 45
297.0
 46
11.54999923706054
 47
-13.65000009536743
 48
0.0
 49
0.0
140
0.0
141
0.0
142
1.0
143
8.704084754739808
 70
 11952
 72
     1
 73
     0
 74
     0
  7

 75
     0
147
0.1148885871608098
148
0.0
149
0.0
100
AcDbLayout
  1
Model
 70
     1
 71
     0
 10
0.0
 20
0.0
 11
12.0
 21
9.0
 12
0.0
 22
0.0
 32
0.0
 14
0.0
 24
0.0
 34
0.0
 15
0.0
 25
0.0
 35
0.0
146
0.0
 13
0.0
 23
0.0
 33
0.0
 16
1.0
 26
0.0
 36
0.0
 17
0.0
 27
1.0
 37
0.0
 76
     0
330
1F
331
EA
1001
ACAD_PSEXT
1000
None
1000
None
1000
Not applicable
1000
The layout will not be plotted unless a new plotter configuration name is selected.
1070
     0
  0
LAYOUT
  5
D3
102
{ACAD_XDICTIONARY
360
286
102
}
102
{ACAD_REACTORS
330
1A
102
}
330
1A
100
AcDbPlotSettings
  1

  2
C:\Documents and Settings\basas\Application Data\Autodesk\AutoCAD 2005\R16.1\enu\plotters\Default Windows System Printer.pc3
  4

  6

 40
0.0
 41
0.0
 42
0.0
 43
0.0
 44
0.0
 45
0.0
 46
0.0
 47
0.0
 48
0.0
 49
0.0
140
0.0
141
0.0
142
1.0
143
1.0
 70
   688
 72
     0
 73
     0
 74
     5
  7

 75
    16
147
1.0
148
0.0
149
0.0
100
AcDbLayout
  1
Présentation1
 70
     1
 71
     1
 10
0.0
 20
0.0
 11
12.0
 21
9.0
 12
0.0
 22
0.0
 32
0.0
 14
0.0
 24
0.0
 34
0.0
 15
0.0
 25
0.0
 35
0.0
146
0.0
 13
0.0
 23
0.0
 33
0.0
 16
1.0
 26
0.0
 36
0.0
 17
0.0
 27
1.0
 37
0.0
 76
     0
330
D2
  0
LAYOUT
  5
D7
102
{ACAD_XDICTIONARY
360
288
102
}
102
{ACAD_REACTORS
330
1A
102
}
330
1A
100
AcDbPlotSettings
  1

  2
C:\Documents and Settings\basas\Application Data\Autodesk\AutoCAD 2005\R16.1\enu\plotters\Default Windows System Printer.pc3
  4

  6

 40
0.0
 41
0.0
 42
0.0
 43
0.0
 44
0.0
 45
0.0
 46
0.0
 47
0.0
 48
0.0
 49
0.0
140
0.0
141
0.0
142
1.0
143
1.0
 70
   688
 72
     0
 73
     0
 74
     5
  7

 75
    16
147
1.0
148
0.0
149
0.0
100
AcDbLayout
  1
Présentation2
 70
     1
 71
     2
 10
0.0
 20
0.0
 11
12.0
 21
9.0
 12
0.0
 22
0.0
 32
0.0
 14
0.0
 24
0.0
 34
0.0
 15
0.0
 25
0.0
 35
0.0
146
0.0
 13
0.0
 23
0.0
 33
0.0
 16
1.0
 26
0.0
 36
0.0
 17
0.0
 27
1.0
 37
0.0
 76
     0
330
D6
  0
MATERIAL
  5
ED
102
{ACAD_XDICTIONARY
360
242
102
}
102
{ACAD_REACTORS
330
6A
102
}
330
6A
100
AcDbMaterial
  1
ByBlock
  0
MATERIAL
  5
EC
102
{ACAD_XDICTIONARY
360
240
102
}
102
{ACAD_REACTORS
330
6A
102
}
330
6A
100
AcDbMaterial
  1
ByLayer
  0
MATERIAL
  5
EE
102
{ACAD_XDICTIONARY
360
173
102
}
102
{ACAD_REACTORS
330
6A
102
}
330
6A
100
AcDbMaterial
  1
Global
 43
0.0007999999797903
 43
0.0
 43
0.0
 43
0.0
 43
0.0
 43
0.0007999999797903
 43
0.0
 43
0.0
 43
0.0
 43
0.0
 43
1.0
 43
0.0
 43
0.0
 43
0.0
 43
0.0
 43
1.0
 49
0.0007999999797903
 49
0.0
 49
0.0
 49
0.0
 49
0.0
 49
0.0007999999797903
 49
0.0
 49
0.0
 49
0.0
 49
0.0
 49
1.0
 49
0.0
 49
0.0
 49
0.0
 49
0.0
 49
1.0
142
0.0007999999797903
142
0.0
142
0.0
142
0.0
142
0.0
142
0.0007999999797903
142
0.0
142
0.0
142
0.0
142
0.0
142
1.0
142
0.0
142
0.0
142
0.0
142
0.0
142
1.0
144
0.0007999999797903
144
0.0
144
0.0
144
0.0
144
0.0
144
0.0007999999797903
144
0.0
144
0.0
144
0.0
144
0.0
144
1.0
144
0.0
144
0.0
144
0.0
144
0.0
144
1.0
1001
ACAD
1070
    -1
1070
     3
1070
     0
1000

1071
        0
1070
     0
  0
MLEADERSTYLE
  5
13B
102
{ACAD_REACTORS
330
12D
102
}
330
12D
100
AcDbMLeaderStyle
170
     2
171
     1
172
     0
 90
        2
 40
0.0
 41
0.0
173
     1
 91
-1056964608
340
14
 92
       -2
290
     1
 42
2.0
291
     1
 43
8.0
  3
Standard
 44
4.0
300

342
11
174
     1
178
     1
175
     1
176
     0
 93
-1056964608
 45
4.0
292
     0
297
     0
 46
4.0
 94
-1056964608
 47
1.0
 49
1.0
140
1.0
293
     1
141
0.0
294
     1
177
     0
142
1.0
295
     0
296
     1
143
3.75
1001
ACAD_MLEADERVER
1070
     2
  0
MLEADERSTYLE
  5
12E
102
{ACAD_REACTORS
330
12D
102
}
330
12D
100
AcDbMLeaderStyle
170
     2
171
     1
172
     0
 90
        2
 40
0.0
 41
0.0
173
     1
 91
-1056964608
340
14
 92
       -2
290
     1
 42
2.0
291
     1
 43
8.0
  3
Standard
 44
4.0
300

342
11
174
     1
178
     1
175
     1
176
     0
 93
-1056964608
 45
4.0
292
     0
297
     0
 46
4.0
 94
-1056964608
 47
1.0
 49
1.0
140
1.0
293
     1
141
0.0
294
     1
177
     0
142
1.0
295
     0
296
     0
143
3.75
1001
ACAD_MLEADERVER
1070
     2
  0
MLINESTYLE
  5
18
102
{ACAD_REACTORS
330
17
102
}
330
17
100
AcDbMlineStyle
  2
STANDARD
 70
     0
  3

 62
   256
 51
90.0
 52
90.0
 71
     2
 49
0.5
 62
   256
  6
BYLAYER
 49
-0.5
 62
   256
  6
BYLAYER
  0
ACDBPLACEHOLDER
  5
F
102
{ACAD_REACTORS
330
E
102
}
330
E
  0
SCALE
  5
10D
102
{ACAD_REACTORS
330
10C
102
}
330
10C
100
AcDbScale
 70
     0
300
1:1
140
1.0
141
1.0
290
     1
  0
SCALE
  5
188
102
{ACAD_REACTORS
330
10C
102
}
330
10C
100
AcDbScale
 70
     0
300
1:2
140
1.0
141
2.0
290
     0
  0
SCALE
  5
189
102
{ACAD_REACTORS
330
10C
102
}
330
10C
100
AcDbScale
 70
     0
300
1:4
140
1.0
141
4.0
290
     0
  0
SCALE
  5
18A
102
{ACAD_REACTORS
330
10C
102
}
330
10C
100
AcDbScale
 70
     0
300
1:5
140
1.0
141
5.0
290
     0
  0
SCALE
  5
18B
102
{ACAD_REACTORS
330
10C
102
}
330
10C
100
AcDbScale
 70
     0
300
1:8
140
1.0
141
8.0
290
     0
  0
SCALE
  5
18C
102
{ACAD_REACTORS
330
10C
102
}
330
10C
100
AcDbScale
 70
     0
300
1:10
140
1.0
141
10.0
290
     0
  0
SCALE
  5
18D
102
{ACAD_REACTORS
330
10C
102
}
330
10C
100
AcDbScale
 70
     0
300
1:16
140
1.0
141
16.0
290
     0
  0
SCALE
  5
18E
102
{ACAD_REACTORS
330
10C
102
}
330
10C
100
AcDbScale
 70
     0
300
1:20
140
1.0
141
20.0
290
     0
  0
SCALE
  5
18F
102
{ACAD_REACTORS
330
10C
102
}
330
10C
100
AcDbScale
 70
     0
300
1:30
140
1.0
141
30.0
290
     0
  0
SCALE
  5
190
102
{ACAD_REACTORS
330
10C
102
}
330
10C
100
AcDbScale
 70
     0
300
1:40
140
1.0
141
40.0
290
     0
  0
SCALE
  5
191
102
{ACAD_REACTORS
330
10C
102
}
330
10C
100
AcDbScale
 70
     0
300
1:50
140
1.0
141
50.0
290
     0
  0
SCALE
  5
192
102
{ACAD_REACTORS
330
10C
102
}
330
10C
100
AcDbScale
 70
     0
300
1:100
140
1.0
141
100.0
290
     0
  0
SCALE
  5
193
102
{ACAD_REACTORS
330
10C
102
}
330
10C
100
AcDbScale
 70
     0
300
2:1
140
2.0
141
1.0
290
     0
  0
SCALE
  5
194
102
{ACAD_REACTORS
330
10C
102
}
330
10C
100
AcDbScale
 70
     0
300
4:1
140
4.0
141
1.0
290
     0
  0
SCALE
  5
195
102
{ACAD_REACTORS
330
10C
102
}
330
10C
100
AcDbScale
 70
     0
300
8:1
140
8.0
141
1.0
290
     0
  0
SCALE
  5
196
102
{ACAD_REACTORS
330
10C
102
}
330
10C
100
AcDbScale
 70
     0
300
10:1
140
10.0
141
1.0
290
     0
  0
SCALE
  5
197
102
{ACAD_REACTORS
330
10C
102
}
330
10C
100
AcDbScale
 70
     0
300
100:1
140
100.0
141
1.0
290
     0
  0
SCALE
  5
198
102
{ACAD_REACTORS
330
10C
102
}
330
10C
100
AcDbScale
 70
     0
300
1/128" = 1'-0"
140
0.0078125
141
12.0
290
     0
  0
SCALE
  5
199
102
{ACAD_REACTORS
330
10C
102
}
330
10C
100
AcDbScale
 70
     0
300
1/64" = 1'-0"
140
0.015625
141
12.0
290
     0
  0
SCALE
  5
19A
102
{ACAD_REACTORS
330
10C
102
}
330
10C
100
AcDbScale
 70
     0
300
1/32" = 1'-0"
140
0.03125
141
12.0
290
     0
  0
SCALE
  5
19B
102
{ACAD_REACTORS
330
10C
102
}
330
10C
100
AcDbScale
 70
     0
300
1/16" = 1'-0"
140
0.0625
141
12.0
290
     0
  0
SCALE
  5
19C
102
{ACAD_REACTORS
330
10C
102
}
330
10C
100
AcDbScale
 70
     0
300
3/32" = 1'-0"
140
0.09375
141
12.0
290
     0
  0
SCALE
  5
19D
102
{ACAD_REACTORS
330
10C
102
}
330
10C
100
AcDbScale
 70
     0
300
1/8" = 1'-0"
140
0.125
141
12.0
290
     0
  0
SCALE
  5
19E
102
{ACAD_REACTORS
330
10C
102
}
330
10C
100
AcDbScale
 70
     0
300
3/16" = 1'-0"
140
0.1875
141
12.0
290
     0
  0
SCALE
  5
19F
102
{ACAD_REACTORS
330
10C
102
}
330
10C
100
AcDbScale
 70
     0
300
1/4" = 1'-0"
140
0.25
141
12.0
290
     0
  0
SCALE
  5
1A0
102
{ACAD_REACTORS
330
10C
102
}
330
10C
100
AcDbScale
 70
     0
300
3/8" = 1'-0"
140
0.375
141
12.0
290
     0
  0
SCALE
  5
1A1
102
{ACAD_REACTORS
330
10C
102
}
330
10C
100
AcDbScale
 70
     0
300
1/2" = 1'-0"
140
0.5
141
12.0
290
     0
  0
SCALE
  5
1A2
102
{ACAD_REACTORS
330
10C
102
}
330
10C
100
AcDbScale
 70
     0
300
3/4" = 1'-0"
140
0.75
141
12.0
290
     0
  0
SCALE
  5
1A3
102
{ACAD_REACTORS
330
10C
102
}
330
10C
100
AcDbScale
 70
     0
300
1" = 1'-0"
140
1.0
141
12.0
290
     0
  0
SCALE
  5
1A4
102
{ACAD_REACTORS
330
10C
102
}
330
10C
100
AcDbScale
 70
     0
300
1-1/2" = 1'-0"
140
1.5
141
12.0
290
     0
  0
SCALE
  5
1A5
102
{ACAD_REACTORS
330
10C
102
}
330
10C
100
AcDbScale
 70
     0
300
3" = 1'-0"
140
3.0
141
12.0
290
     0
  0
SCALE
  5
1A6
102
{ACAD_REACTORS
330
10C
102
}
330
10C
100
AcDbScale
 70
     0
300
6" = 1'-0"
140
6.0
141
12.0
290
     0
  0
SCALE
  5
1A7
102
{ACAD_REACTORS
330
10C
102
}
330
10C
100
AcDbScale
 70
     0
300
1'-0" = 1'-0"
140
12.0
141
12.0
290
     0
  0
TABLESTYLE
  5
7F
102
{ACAD_XDICTIONARY
360
162
102
}
102
{ACAD_REACTORS
330
7E
102
}
330
7E
100
AcDbTableStyle
  3
Standard
 70
     0
 71
     0
 40
1.5
 41
1.5
280
     0
281
     0
  7
Standard
140
4.5
170
     2
 62
     0
 63
     7
283
     0
274
    -2
284
     1
 64
     0
275
    -2
285
     1
 65
     0
276
    -2
286
     1
 66
     0
277
    -2
287
     1
 67
     0
278
    -2
288
     1
 68
     0
279
    -2
289
     1
 69
     0
  7
Standard
140
6.0
170
     5
 62
     0
 63
     7
283
     0
274
    -2
284
     1
 64
     0
275
    -2
285
     1
 65
     0
276
    -2
286
     1
 66
     0
277
    -2
287
     1
 67
     0
278
    -2
288
     1
 68
     0
279
    -2
289
     1
 69
     0
  7
Standard
140
4.5
170
     5
 62
     0
 63
     7
283
     0
274
    -2
284
     1
 64
     0
275
    -2
285
     1
 65
     0
276
    -2
286
     1
 66
     0
277
    -2
287
     1
 67
     0
278
    -2
288
     1
 68
     0
279
    -2
289
     1
 69
     0
  0
VISUALSTYLE
  5
F5
102
{ACAD_REACTORS
330
EF
102
}
330
EF
100
AcDbVisualStyle
  2
2dWireframe
 70
     4
 71
     0
 72
     2
 73
     1
 90
        0
 40
-0.6
 41
-30.0
 62
     5
 63
     7
 74
     1
 91
        4
 64
     7
 65
   257
 75
     1
175
     1
 42
1.0
 92
        0
 66
   257
 43
1.0
 76
     1
 77
     6
 78
     2
 67
     7
 79
     5
170
     0
171
     0
290
     0
174
     0
 93
        1
 44
0.0
173
     0
291
     0
 45
0.0
1001
ACAD
1000
AcDbSavedByObjectVersion
1070
     0
1000
AcDbSavedByObjectVersion
1070
     0
1000
AcDbSavedByObjectVersion
1070
     0
1000
AcDbSavedByObjectVersion
1070
     0
  0
VISUALSTYLE
  5
F7
102
{ACAD_REACTORS
330
EF
102
}
330
EF
100
AcDbVisualStyle
  2
3D Hidden
 70
     6
 71
     1
 72
     2
 73
     2
 90
        0
 40
-0.6
 41
-30.0
 62
     5
 63
     7
 74
     2
 91
        2
 64
     7
 65
   257
 75
     2
175
     1
 42
40.0
 92
        0
 66
   257
 43
1.0
 76
     1
 77
     6
 78
     2
 67
     7
 79
     3
170
     0
171
     0
290
     0
174
     0
 93
        1
 44
0.0
173
     0
291
     0
 45
0.0
1001
ACAD
1000
AcDbSavedByObjectVersion
1070
     0
1000
AcDbSavedByObjectVersion
1070
     0
1000
AcDbSavedByObjectVersion
1070
     0
1000
AcDbSavedByObjectVersion
1070
     0
  0
VISUALSTYLE
  5
F6
102
{ACAD_REACTORS
330
EF
102
}
330
EF
100
AcDbVisualStyle
  2
3dWireframe
 70
     5
 71
     0
 72
     2
 73
     1
 90
        0
 40
-0.6
 41
-30.0
 62
     5
 63
     7
 74
     1
 91
        4
 64
     7
 65
   257
 75
     1
175
     1
 42
1.0
 92
        0
 66
   257
 43
1.0
 76
     1
 77
     6
 78
     2
 67
     7
 79
     5
170
     0
171
     0
290
     0
174
     0
 93
        1
 44
0.0
173
     0
291
     0
 45
0.0
1001
ACAD
1000
AcDbSavedByObjectVersion
1070
     0
1000
AcDbSavedByObjectVersion
1070
     0
1000
AcDbSavedByObjectVersion
1070
     0
1000
AcDbSavedByObjectVersion
1070
     0
  0
VISUALSTYLE
  5
F4
102
{ACAD_REACTORS
330
EF
102
}
330
EF
100
AcDbVisualStyle
  2
Basic
 70
     7
 71
     1
 72
     0
 73
     1
 90
        0
 40
-0.6
 41
-30.0
 62
     5
 63
     7
 74
     0
 91
        4
 64
     7
 65
   257
 75
     1
175
     1
 42
1.0
 92
        8
 66
     7
 43
1.0
 76
     1
 77
     6
 78
     2
 67
     7
 79
     5
170
     0
171
     0
290
     0
174
     0
 93
        1
 44
0.0
173
     0
291
     1
 45
0.0
1001
ACAD
1000
AcDbSavedByObjectVersion
1070
     0
1000
AcDbSavedByObjectVersion
1070
     0
1000
AcDbSavedByObjectVersion
1070
     0
1000
AcDbSavedByObjectVersion
1070
     0
  0
VISUALSTYLE
  5
FB
102
{ACAD_REACTORS
330
EF
102
}
330
EF
100
AcDbVisualStyle
  2
Brighten
 70
    12
 71
     2
 72
     2
 73
     1
 90
        0
 40
-0.6
 41
-30.0
 62
     5
 63
     7
 74
     1
 91
        4
 64
     7
 65
   257
 75
     1
175
     1
 42
1.0
 92
        8
 66
     7
 43
1.0
 76
     1
 77
     6
 78
     2
 67
     7
 79
     5
170
     0
171
     0
290
     0
174
     0
 93
        1
 44
50.0
173
     0
291
     1
 45
0.0
1001
ACAD
1000
AcDbSavedByObjectVersion
1070
     0
1000
AcDbSavedByObjectVersion
1070
     0
1000
AcDbSavedByObjectVersion
1070
     0
1000
AcDbSavedByObjectVersion
1070
     0
  0
VISUALSTYLE
  5
FF
102
{ACAD_REACTORS
330
EF
102
}
330
EF
100
AcDbVisualStyle
  2
ColorChange
 70
    16
 71
     2
 72
     2
 73
     3
 90
        0
 40
-0.6
 41
-30.0
 62
     5
 63
     8
 74
     1
 91
        4
 64
     7
 65
   257
 75
     1
175
     1
 42
1.0
 92
        8
 66
     8
 43
1.0
 76
     1
 77
     6
 78
     2
 67
     7
 79
     5
170
     0
171
     0
290
     0
174
     0
 93
        1
 44
0.0
173
     0
291
     1
 45
0.0
1001
ACAD
1000
AcDbSavedByObjectVersion
1070
     0
1000
AcDbSavedByObjectVersion
1070
     0
1000
AcDbSavedByObjectVersion
1070
     0
1000
AcDbSavedByObjectVersion
1070
     0
  0
VISUALSTYLE
  5
F8
102
{ACAD_REACTORS
330
EF
102
}
330
EF
100
AcDbVisualStyle
  2
Conceptual
 70
     9
 71
     3
 72
     2
 73
     1
 90
        0
 40
-0.6
 41
-30.0
 62
     5
 63
     7
 74
     2
 91
        2
 64
     7
 65
   257
 75
     1
175
     1
 42
40.0
 92
        8
 66
     7
 43
1.0
 76
     1
 77
     6
 78
     2
 67
     7
 79
     3
170
     0
171
     0
290
     0
174
     0
 93
        1
 44
0.0
173
     0
291
     0
 45
0.0
1001
ACAD
1000
AcDbSavedByObjectVersion
1070
     0
1000
AcDbSavedByObjectVersion
1070
     0
1000
AcDbSavedByObjectVersion
1070
     0
1000
AcDbSavedByObjectVersion
1070
     0
  0
VISUALSTYLE
  5
FA
102
{ACAD_REACTORS
330
EF
102
}
330
EF
100
AcDbVisualStyle
  2
Dim
 70
    11
 71
     2
 72
     2
 73
     1
 90
        0
 40
-0.6
 41
-30.0
 62
     5
 63
     7
 74
     1
 91
        4
 64
     7
 65
   257
 75
     1
175
     1
 42
1.0
 92
        8
 66
     7
 43
1.0
 76
     1
 77
     6
 78
     2
 67
     7
 79
     5
170
     0
171
     0
290
     0
174
     0
 93
        1
 44
-50.0
173
     0
291
     1
 45
0.0
1001
ACAD
1000
AcDbSavedByObjectVersion
1070
     0
1000
AcDbSavedByObjectVersion
1070
     0
1000
AcDbSavedByObjectVersion
1070
     0
1000
AcDbSavedByObjectVersion
1070
     0
  0
VISUALSTYLE
  5
FE
102
{ACAD_REACTORS
330
EF
102
}
330
EF
100
AcDbVisualStyle
  2
Facepattern
 70
    15
 71
     2
 72
     2
 73
     1
 90
        0
 40
-0.6
 41
-30.0
 62
     5
 63
     7
 74
     1
 91
        4
 64
     7
 65
   257
 75
     1
175
     1
 42
1.0
 92
        8
 66
     7
 43
1.0
 76
     1
 77
     6
 78
     2
 67
     7
 79
     5
170
     0
171
     0
290
     0
174
     0
 93
        1
 44
0.0
173
     0
291
     1
 45
0.0
1001
ACAD
1000
AcDbSavedByObjectVersion
1070
     0
1000
AcDbSavedByObjectVersion
1070
     0
1000
AcDbSavedByObjectVersion
1070
     0
1000
AcDbSavedByObjectVersion
1070
     0
  0
VISUALSTYLE
  5
F0
102
{ACAD_REACTORS
330
EF
102
}
330
EF
100
AcDbVisualStyle
  2
Flat
 70
     0
 71
     2
 72
     1
 73
     1
 90
        2
 40
-0.6
 41
30.0
 62
     5
 63
     7
 74
     0
 91
        4
 64
     7
 65
   257
 75
     1
175
     1
 42
1.0
 92
        8
 66
     7
 43
1.0
 76
     1
 77
     6
 78
     2
 67
     7
 79
     5
170
     0
171
     0
290
     0
174
     0
 93
        1
 44
0.0
173
     0
291
     1
 45
0.0
1001
ACAD
1000
AcDbSavedByObjectVersion
1070
     0
1000
AcDbSavedByObjectVersion
1070
     0
1000
AcDbSavedByObjectVersion
1070
     0
1000
AcDbSavedByObjectVersion
1070
     0
  0
VISUALSTYLE
  5
F1
102
{ACAD_REACTORS
330
EF
102
}
330
EF
100
AcDbVisualStyle
  2
FlatWithEdges
 70
     1
 71
     2
 72
     1
 73
     1
 90
        2
 40
-0.6
 41
30.0
 62
     5
 63
     7
 74
     1
 91
        4
 64
     7
 65
   257
 75
     1
175
     1
 42
1.0
 92
        0
 66
   257
 43
1.0
 76
     1
 77
     6
 78
     2
 67
     7
 79
     5
170
     0
171
     0
290
     0
174
     0
 93
        1
 44
0.0
173
     0
291
     1
 45
0.0
1001
ACAD
1000
AcDbSavedByObjectVersion
1070
     0
1000
AcDbSavedByObjectVersion
1070
     0
1000
AcDbSavedByObjectVersion
1070
     0
1000
AcDbSavedByObjectVersion
1070
     0
  0
VISUALSTYLE
  5
F2
102
{ACAD_REACTORS
330
EF
102
}
330
EF
100
AcDbVisualStyle
  2
Gouraud
 70
     2
 71
     2
 72
     2
 73
     1
 90
        2
 40
-0.6
 41
30.0
 62
     5
 63
     7
 74
     0
 91
        4
 64
     7
 65
   257
 75
     1
175
     1
 42
1.0
 92
        0
 66
     7
 43
1.0
 76
     1
 77
     6
 78
     2
 67
     7
 79
     5
170
     0
171
     0
290
     0
174
     0
 93
        1
 44
0.0
173
     0
291
     1
 45
0.0
1001
ACAD
1000
AcDbSavedByObjectVersion
1070
     0
1000
AcDbSavedByObjectVersion
1070
     0
1000
AcDbSavedByObjectVersion
1070
     0
1000
AcDbSavedByObjectVersion
1070
     0
  0
VISUALSTYLE
  5
F3
102
{ACAD_REACTORS
330
EF
102
}
330
EF
100
AcDbVisualStyle
  2
GouraudWithEdges
 70
     3
 71
     2
 72
     2
 73
     1
 90
        2
 40
-0.6
 41
30.0
 62
     5
 63
     7
 74
     1
 91
        4
 64
     7
 65
   257
 75
     1
175
     1
 42
1.0
 92
        0
 66
   257
 43
1.0
 76
     1
 77
     6
 78
     2
 67
     7
 79
     5
170
     0
171
     0
290
     0
174
     0
 93
        1
 44
0.0
173
     0
291
     1
 45
0.0
1001
ACAD
1000
AcDbSavedByObjectVersion
1070
     0
1000
AcDbSavedByObjectVersion
1070
     0
1000
AcDbSavedByObjectVersion
1070
     0
1000
AcDbSavedByObjectVersion
1070
     0
  0
VISUALSTYLE
  5
FD
102
{ACAD_REACTORS
330
EF
102
}
330
EF
100
AcDbVisualStyle
  2
Linepattern
 70
    14
 71
     2
 72
     2
 73
     1
 90
        0
 40
-0.6
 41
-30.0
 62
     5
 63
     7
 74
     1
 91
        4
 64
     7
 65
   257
 75
     7
175
     7
 42
1.0
 92
        8
 66
     7
 43
1.0
 76
     1
 77
     6
 78
     2
 67
     7
 79
     5
170
     0
171
     0
290
     0
174
     0
 93
        1
 44
0.0
173
     0
291
     1
 45
0.0
1001
ACAD
1000
AcDbSavedByObjectVersion
1070
     0
1000
AcDbSavedByObjectVersion
1070
     0
1000
AcDbSavedByObjectVersion
1070
     0
1000
AcDbSavedByObjectVersion
1070
     0
  0
VISUALSTYLE
  5
F9
102
{ACAD_REACTORS
330
EF
102
}
330
EF
100
AcDbVisualStyle
  2
Realistic
 70
     8
 71
     2
 72
     2
 73
     1
 90
        0
 40
-0.6
 41
-30.0
 62
     5
 63
     7
 74
     1
 91
        0
 64
     7
 65
   257
 75
     1
175
     1
 42
1.0
 92
        8
 66
     8
 43
1.0
 76
     1
 77
     6
 78
     2
 67
     7
 79
     5
170
     0
171
     0
290
     0
174
     0
 93
       13
 44
0.0
173
     0
291
     0
 45
0.0
1001
ACAD
1000
AcDbSavedByObjectVersion
1070
     0
1000
AcDbSavedByObjectVersion
1070
     0
1000
AcDbSavedByObjectVersion
1070
     0
1000
AcDbSavedByObjectVersion
1070
     0
  0
VISUALSTYLE
  5
FC
102
{ACAD_REACTORS
330
EF
102
}
330
EF
100
AcDbVisualStyle
  2
Thicken
 70
    13
 71
     2
 72
     2
 73
     1
 90
        0
 40
-0.6
 41
-30.0
 62
     5
 63
     7
 74
     1
 91
        4
 64
     7
 65
   257
 75
     1
175
     1
 42
1.0
 92
       12
 66
     7
 43
1.0
 76
     1
 77
     6
 78
     2
 67
     7
 79
     5
170
     0
171
     0
290
     0
174
     0
 93
        1
 44
0.0
173
     0
291
     1
 45
0.0
1001
ACAD
1000
AcDbSavedByObjectVersion
1070
     0
1000
AcDbSavedByObjectVersion
1070
     0
1000
AcDbSavedByObjectVersion
1070
     0
1000
AcDbSavedByObjectVersion
1070
     0
  0
DICTIONARYVAR
  5
146
102
{ACAD_REACTORS
330
5E
102
}
330
5E
100
DictionaryVariables
280
     0
  1
1:1
  0
DICTIONARYVAR
  5
145
102
{ACAD_REACTORS
330
5E
102
}
330
5E
100
DictionaryVariables
280
     0
  1
STANDARD
  0
DICTIONARYVAR
  5
84
102
{ACAD_REACTORS
330
5E
102
}
330
5E
100
DictionaryVariables
280
     0
  1
STANDARD
  0
DICTIONARYVAR
  5
5F
102
{ACAD_REACTORS
330
5E
102
}
330
5E
100
DictionaryVariables
280
     0
  1
2
  0
DICTIONARYVAR
  5
63
102
{ACAD_REACTORS
330
5E
102
}
330
5E
100
DictionaryVariables
280
     0
  1
1
  0
DICTIONARYVAR
  5
234
102
{ACAD_REACTORS
330
5E
102
}
330
5E
100
DictionaryVariables
280
     0
  1
0
  0
DICTIONARYVAR
  5
232
102
{ACAD_REACTORS
330
5E
102
}
330
5E
100
DictionaryVariables
280
     0
  1
2
  0
DICTIONARYVAR
  5
231
102
{ACAD_REACTORS
330
5E
102
}
330
5E
100
DictionaryVariables
280
     0
  1
1
  0
DICTIONARYVAR
  5
280
102
{ACAD_REACTORS
330
5E
102
}
330
5E
100
DictionaryVariables
280
     0
  1
80.000000
  0
DICTIONARYVAR
  5
27F
102
{ACAD_REACTORS
330
5E
102
}
330
5E
100
DictionaryVariables
280
     0
  1
5.000000
  0
DICTIONARYVAR
  5
233
102
{ACAD_REACTORS
330
5E
102
}
330
5E
100
DictionaryVariables
280
     0
  1
127
  0
DICTIONARY
  5
283
330
22
100
AcDbDictionary
280
     1
281
     1
  3
ACAD_XREC_ROUNDTRIP
360
284
  0
DICTIONARY
  5
286
330
D3
100
AcDbDictionary
280
     1
281
     1
  3
ACAD_XREC_ROUNDTRIP
360
287
  0
DICTIONARY
  5
288
330
D7
100
AcDbDictionary
280
     1
281
     1
  3
ACAD_XREC_ROUNDTRIP
360
289
  0
DICTIONARY
  5
242
330
ED
100
AcDbDictionary
280
     1
281
     1
  3
ACAD_XREC_ROUNDTRIP
360
243
  0
DICTIONARY
  5
240
330
EC
100
AcDbDictionary
280
     1
281
     1
  3
ACAD_XREC_ROUNDTRIP
360
241
  0
DICTIONARY
  5
173
330
EE
100
AcDbDictionary
280
     1
281
     1
  3
ACAD_XREC_ROUNDTRIP
360
244
  3
BUMPTILE
360
175
  3
DIFFUSETILE
360
174
  3
OPACITYTILE
360
176
  3
REFLECTIONTILE
360
177
  0
DICTIONARY
  5
162
330
7F
100
AcDbDictionary
280
     1
281
     1
  3
ACAD_ROUNDTRIP_2008_TABLESTYLE_CELLSTYLEMAP
360
281
  3
ACAD_XREC_ROUNDTRIP
360
285
  0
XRECORD
  5
284
102
{ACAD_REACTORS
330
283
102
}
330
283
100
AcDbXrecord
280
     1
102
SHADEPLOT
 70
     0
102
SHADEPLOTRESLEVEL
 70
     2
102
SHADEPLOTCUSTOMDPI
 70
   300
  0
XRECORD
  5
287
102
{ACAD_REACTORS
330
286
102
}
330
286
100
AcDbXrecord
280
     1
102
SHADEPLOT
 70
     0
102
SHADEPLOTRESLEVEL
 70
     2
102
SHADEPLOTCUSTOMDPI
 70
   300
  0
XRECORD
  5
289
102
{ACAD_REACTORS
330
288
102
}
330
288
100
AcDbXrecord
280
     1
102
SHADEPLOT
 70
     0
102
SHADEPLOTRESLEVEL
 70
     2
102
SHADEPLOTCUSTOMDPI
 70
   300
  0
XRECORD
  5
243
102
{ACAD_REACTORS
330
242
102
}
330
242
100
AcDbXrecord
280
     1
102
MATERIAL
148
0.0
149
0.0
149
0.0
 93
        0
 94
      127
282
     0
 72
     1
 77
     1
171
     1
175
     1
179
     1
273
     0
  0
XRECORD
  5
241
102
{ACAD_REACTORS
330
240
102
}
330
240
100
AcDbXrecord
280
     1
102
MATERIAL
148
0.0
149
0.0
149
0.0
 93
        0
 94
      127
282
     0
 72
     1
 77
     1
171
     1
175
     1
179
     1
273
     0
  0
XRECORD
  5
244
102
{ACAD_REACTORS
330
173
102
}
330
173
100
AcDbXrecord
280
     1
102
MATERIAL
148
0.0
149
0.0
149
0.0
 93
        0
 94
      127
282
     0
 72
     1
 77
     1
171
     1
175
     1
179
     1
273
     0
  0
XRECORD
  5
175
102
{ACAD_REACTORS
330
173
102
}
330
173
100
AcDbXrecord
280
     1
270
     1
271
     1
  0
XRECORD
  5
174
102
{ACAD_REACTORS
330
173
102
}
330
173
100
AcDbXrecord
280
     1
270
     1
271
     1
  0
XRECORD
  5
176
102
{ACAD_REACTORS
330
173
102
}
330
173
100
AcDbXrecord
280
     1
270
     1
271
     1
  0
XRECORD
  5
177
102
{ACAD_REACTORS
330
173
102
}
330
173
100
AcDbXrecord
280
     1
270
     1
271
     1
  0
CELLSTYLEMAP
  5
281
102
{ACAD_REACTORS
330
162
102
}
330
162
100
AcDbCellStyleMap
 90
        3
300
CELLSTYLE
  1
TABLEFORMAT_BEGIN
 90
        5
170
     1
 91
        0
 92
    32768
 62
   257
 93
        1
300
CONTENTFORMAT
  1
CONTENTFORMAT_BEGIN
 90
        0
 91
        0
 92
      512
 93
        0
300

 40
0.0
140
1.0
 94
        5
 62
     0
340
11
144
6.0
309
CONTENTFORMAT_END
171
     1
301
MARGIN
  1
CELLMARGIN_BEGIN
 40
1.5
 40
1.5
 40
1.5
 40
1.5
 40
0.18
 40
0.18
309
CELLMARGIN_END
 94
        6
 95
        1
302
GRIDFORMAT
  1
GRIDFORMAT_BEGIN
 90
        0
 91
        1
 62
     0
 92
       -2
340
14
 93
        0
 40
1.125
309
GRIDFORMAT_END
 95
        2
302
GRIDFORMAT
  1
GRIDFORMAT_BEGIN
 90
        0
 91
        1
 62
     0
 92
       -2
340
14
 93
        0
 40
1.125
309
GRIDFORMAT_END
 95
        4
302
GRIDFORMAT
  1
GRIDFORMAT_BEGIN
 90
        0
 91
        1
 62
     0
 92
       -2
340
14
 93
        0
 40
1.125
309
GRIDFORMAT_END
 95
        8
302
GRIDFORMAT
  1
GRIDFORMAT_BEGIN
 90
        0
 91
        1
 62
     0
 92
       -2
340
14
 93
        0
 40
1.125
309
GRIDFORMAT_END
 95
       16
302
GRIDFORMAT
  1
GRIDFORMAT_BEGIN
 90
        0
 91
        1
 62
     0
 92
       -2
340
14
 93
        0
 40
1.125
309
GRIDFORMAT_END
 95
       32
302
GRIDFORMAT
  1
GRIDFORMAT_BEGIN
 90
        0
 91
        1
 62
     0
 92
       -2
340
14
 93
        0
 40
1.125
309
GRIDFORMAT_END
309
TABLEFORMAT_END
  1
CELLSTYLE_BEGIN
 90
        1
 91
        1
300
_TITLE
309
CELLSTYLE_END
300
CELLSTYLE
  1
TABLEFORMAT_BEGIN
 90
        5
170
     1
 91
        0
 92
        0
 62
   257
 93
        1
300
CONTENTFORMAT
  1
CONTENTFORMAT_BEGIN
 90
        0
 91
        0
 92
      512
 93
        0
300

 40
0.0
140
1.0
 94
        5
 62
     0
340
11
144
4.5
309
CONTENTFORMAT_END
171
     1
301
MARGIN
  1
CELLMARGIN_BEGIN
 40
1.5
 40
1.5
 40
1.5
 40
1.5
 40
0.18
 40
0.18
309
CELLMARGIN_END
 94
        6
 95
        1
302
GRIDFORMAT
  1
GRIDFORMAT_BEGIN
 90
        0
 91
        1
 62
     0
 92
       -2
340
14
 93
        0
 40
1.125
309
GRIDFORMAT_END
 95
        2
302
GRIDFORMAT
  1
GRIDFORMAT_BEGIN
 90
        0
 91
        1
 62
     0
 92
       -2
340
14
 93
        0
 40
1.125
309
GRIDFORMAT_END
 95
        4
302
GRIDFORMAT
  1
GRIDFORMAT_BEGIN
 90
        0
 91
        1
 62
     0
 92
       -2
340
14
 93
        0
 40
1.125
309
GRIDFORMAT_END
 95
        8
302
GRIDFORMAT
  1
GRIDFORMAT_BEGIN
 90
        0
 91
        1
 62
     0
 92
       -2
340
14
 93
        0
 40
1.125
309
GRIDFORMAT_END
 95
       16
302
GRIDFORMAT
  1
GRIDFORMAT_BEGIN
 90
        0
 91
        1
 62
     0
 92
       -2
340
14
 93
        0
 40
1.125
309
GRIDFORMAT_END
 95
       32
302
GRIDFORMAT
  1
GRIDFORMAT_BEGIN
 90
        0
 91
        1
 62
     0
 92
       -2
340
14
 93
        0
 40
1.125
309
GRIDFORMAT_END
309
TABLEFORMAT_END
  1
CELLSTYLE_BEGIN
 90
        2
 91
        1
300
_HEADER
309
CELLSTYLE_END
300
CELLSTYLE
  1
TABLEFORMAT_BEGIN
 90
        5
170
     1
 91
        0
 92
        0
 62
   257
 93
        1
300
CONTENTFORMAT
  1
CONTENTFORMAT_BEGIN
 90
        0
 91
        0
 92
      512
 93
        0
300

 40
0.0
140
1.0
 94
        2
 62
     0
340
11
144
4.5
309
CONTENTFORMAT_END
171
     1
301
MARGIN
  1
CELLMARGIN_BEGIN
 40
1.5
 40
1.5
 40
1.5
 40
1.5
 40
0.18
 40
0.18
309
CELLMARGIN_END
 94
        6
 95
        1
302
GRIDFORMAT
  1
GRIDFORMAT_BEGIN
 90
        0
 91
        1
 62
     0
 92
       -2
340
14
 93
        0
 40
1.125
309
GRIDFORMAT_END
 95
        2
302
GRIDFORMAT
  1
GRIDFORMAT_BEGIN
 90
        0
 91
        1
 62
     0
 92
       -2
340
14
 93
        0
 40
1.125
309
GRIDFORMAT_END
 95
        4
302
GRIDFORMAT
  1
GRIDFORMAT_BEGIN
 90
        0
 91
        1
 62
     0
 92
       -2
340
14
 93
        0
 40
1.125
309
GRIDFORMAT_END
 95
        8
302
GRIDFORMAT
  1
GRIDFORMAT_BEGIN
 90
        0
 91
        1
 62
     0
 92
       -2
340
14
 93
        0
 40
1.125
309
GRIDFORMAT_END
 95
       16
302
GRIDFORMAT
  1
GRIDFORMAT_BEGIN
 90
        0
 91
        1
 62
     0
 92
       -2
340
14
 93
        0
 40
1.125
309
GRIDFORMAT_END
 95
       32
302
GRIDFORMAT
  1
GRIDFORMAT_BEGIN
 90
        0
 91
        1
 62
     0
 92
       -2
340
14
 93
        0
 40
1.125
309
GRIDFORMAT_END
309
TABLEFORMAT_END
  1
CELLSTYLE_BEGIN
 90
        3
 91
        2
300
_DATA
309
CELLSTYLE_END
  0
XRECORD
  5
285
102
{ACAD_REACTORS
330
162
102
}
330
162
100
AcDbXrecord
280
     1
102
ACAD_ROUNDTRIP_PRE2007_TABLESTYLE
 90
      512
 91
        0
  1

 92
      512
 93
        0
  2

 94
      512
 95
        0
  3

  0
ENDSEC
  0
EOF
